ISO-10303-21;
HEADER;
FILE_DESCRIPTION (( 'STEP AP203' ),
    '1' );
FILE_NAME ('QB-CTZHWP-10-1550-M.STEP',
    '2020-12-24T01:33:58',
    ( '' ),
    ( '' ),
    'SwSTEP 2.0',
    'SolidWorks 2020',
    '' );
FILE_SCHEMA (( 'CONFIG_CONTROL_DESIGN' ));
ENDSEC;

DATA;
#1 = DIRECTION ( 'NONE',  ( -0.000000000000000000, 0.000000000000000000, 1.000000000000000000 ) ) ;
#2 = CARTESIAN_POINT ( 'NONE',  ( -3.000000000000000000, 0.000000000000000000, 12.69999999999999929 ) ) ;
#3 = PLANE ( 'NONE',  #134 ) ;
#4 = DIRECTION ( 'NONE',  ( -1.000000000000000000, -0.000000000000000000, -0.000000000000000000 ) ) ;
#5 = EDGE_CURVE ( 'NONE', #171, #115, #82, .T. ) ;
#6 = APPLICATION_PROTOCOL_DEFINITION ( 'international standard', 'config_control_design', 1994, #238 ) ;
#7 = CIRCLE ( 'NONE', #113, 5.000000000000000000 ) ;
#8 = DIRECTION ( 'NONE',  ( -0.000000000000000000, 0.000000000000000000, 1.000000000000000000 ) ) ;
#9 = APPROVAL ( #223, 'UNSPECIFIED' ) ;
#10 = DIRECTION ( 'NONE',  ( 0.000000000000000000, 0.000000000000000000, 1.000000000000000000 ) ) ;
#11 = CARTESIAN_POINT ( 'NONE',  ( 1.250000000000000444, 6.123233995736766282E-16, -5.000000000000000000 ) ) ;
#12 = ORIENTED_EDGE ( 'NONE', *, *, #139, .T. ) ;
#13 = AXIS2_PLACEMENT_3D ( 'NONE', #259, #183, #32 ) ;
#14 = ORIENTED_EDGE ( 'NONE', *, *, #278, .F. ) ;
#15 = COORDINATED_UNIVERSAL_TIME_OFFSET ( 8, 0, .AHEAD. ) ;
#16 = AXIS2_PLACEMENT_3D ( 'NONE', #320, #83, #132 ) ;
#17 = ADVANCED_FACE ( 'NONE', ( #150 ), #125, .T. ) ;
#18 = EDGE_LOOP ( 'NONE', ( #198, #245 ) ) ;
#19 = APPROVAL_DATE_TIME ( #199, #212 ) ;
#20 = ORIENTED_EDGE ( 'NONE', *, *, #162, .F. ) ;
#21 = ORIENTED_EDGE ( 'NONE', *, *, #278, .T. ) ;
#22 = DATE_AND_TIME ( #41, #190 ) ;
#23 = VECTOR ( 'NONE', #265, 1000.000000000000000 ) ;
#24 = DIRECTION ( 'NONE',  ( -1.000000000000000000, -0.000000000000000000, -0.000000000000000000 ) ) ;
#25 = CARTESIAN_POINT ( 'NONE',  ( -1.614212418857619014, 6.123233995736767268E-16, -5.000000000000000888 ) ) ;
#26 = FACE_BOUND ( 'NONE', #18, .T. ) ;
#27 = CC_DESIGN_PERSON_AND_ORGANIZATION_ASSIGNMENT ( #43, #246, ( #69 ) ) ;
#28 = DIRECTION ( 'NONE',  ( 0.000000000000000000, 0.000000000000000000, 1.000000000000000000 ) ) ;
#29 = CARTESIAN_POINT ( 'NONE',  ( -1.614212418857619014, 0.000000000000000000, 0.000000000000000000 ) ) ;
#30 = DIRECTION ( 'NONE',  ( 0.000000000000000000, 0.000000000000000000, 1.000000000000000000 ) ) ;
#31 = APPROVAL_PERSON_ORGANIZATION ( #332, #9, #300 ) ;
#32 = DIRECTION ( 'NONE',  ( 0.000000000000000000, 0.000000000000000000, 1.000000000000000000 ) ) ;
#33 = APPLICATION_CONTEXT ( 'configuration controlled 3d designs of mechanical parts and assemblies' ) ;
#34 = CARTESIAN_POINT ( 'NONE',  ( -1.250000000000000222, 6.123233995736767268E-16, -5.000000000000000888 ) ) ;
#35 = DIRECTION ( 'NONE',  ( 0.000000000000000000, 0.000000000000000000, 1.000000000000000000 ) ) ;
#36 = CARTESIAN_POINT ( 'NONE',  ( -1.614212418857619014, 0.000000000000000000, 0.000000000000000000 ) ) ;
#37 = CIRCLE ( 'NONE', #44, 12.69999999999999929 ) ;
#38 = MANIFOLD_SOLID_BREP ( 'Ðý×', #218 ) ;
#39 = CARTESIAN_POINT ( 'NONE',  ( -3.000000000000000000, 6.123233995736766282E-16, -5.000000000000000000 ) ) ;
#40 = EDGE_CURVE ( 'NONE', #274, #171, #202, .T. ) ;
#41 = CALENDAR_DATE ( 2020, 24, 12 ) ;
#42 = VERTEX_POINT ( 'NONE', #2 ) ;
#43 = PERSON_AND_ORGANIZATION ( #230, #105 ) ;
#44 = AXIS2_PLACEMENT_3D ( 'NONE', #109, #239, #35 ) ;
#45 = EDGE_CURVE ( 'NONE', #274, #217, #252, .T. ) ;
#46 = EDGE_LOOP ( 'NONE', ( #304, #87 ) ) ;
#47 = APPROVAL_STATUS ( 'not_yet_approved' ) ;
#48 = EDGE_LOOP ( 'NONE', ( #70, #50, #328, #147 ) ) ;
#49 = APPROVAL_DATE_TIME ( #168, #9 ) ;
#50 = ORIENTED_EDGE ( 'NONE', *, *, #53, .T. ) ;
#51 = AXIS2_PLACEMENT_3D ( 'NONE', #262, #296, #158 ) ;
#52 = LINE ( 'NONE', #75, #181 ) ;
#53 = EDGE_CURVE ( 'NONE', #217, #115, #312, .T. ) ;
#54 = DIRECTION ( 'NONE',  ( -1.000000000000000000, -0.000000000000000000, -0.000000000000000000 ) ) ;
#55 = CARTESIAN_POINT ( 'NONE',  ( 3.000000000000000000, 1.555301434917138433E-15, -12.69999999999999929 ) ) ;
#56 = AXIS2_PLACEMENT_3D ( 'NONE', #152, #24, #28 ) ;
#57 = AXIS2_PLACEMENT_3D ( 'NONE', #291, #138, #8 ) ;
#58 = DIRECTION ( 'NONE',  ( 1.000000000000000000, 0.000000000000000000, 0.000000000000000000 ) ) ;
#59 = AXIS2_PLACEMENT_3D ( 'NONE', #130, #283, #1 ) ;
#60 = FACE_OUTER_BOUND ( 'NONE', #298, .T. ) ;
#61 = DIRECTION ( 'NONE',  ( -1.000000000000000000, -0.000000000000000000, -0.000000000000000000 ) ) ;
#62 = DIRECTION ( 'NONE',  ( -1.000000000000000000, -0.000000000000000000, -0.000000000000000000 ) ) ;
#63 = LOCAL_TIME ( 9, 33, 58.00000000000000000, #89 ) ;
#64 = FACE_OUTER_BOUND ( 'NONE', #145, .T. ) ;
#65 = EDGE_LOOP ( 'NONE', ( #299, #141, #123, #88 ) ) ;
#66 = ORIENTED_EDGE ( 'NONE', *, *, #209, .F. ) ;
#67 = PERSON_AND_ORGANIZATION ( #230, #105 ) ;
#68 = PERSON_AND_ORGANIZATION_ROLE ( 'classification_officer' ) ;
#69 = PRODUCT_DEFINITION ( 'UNKNOWN', '', #174, #176 ) ;
#70 = ORIENTED_EDGE ( 'NONE', *, *, #45, .T. ) ;
#71 = EDGE_LOOP ( 'NONE', ( #331, #253, #12, #324 ) ) ;
#72 = CARTESIAN_POINT ( 'NONE',  ( -1.614212418857619014, 1.555301434917138433E-15, -12.69999999999999929 ) ) ;
#73 = DIRECTION ( 'NONE',  ( 1.000000000000000000, 0.000000000000000000, 0.000000000000000000 ) ) ;
#74 = EDGE_CURVE ( 'NONE', #193, #269, #136, .T. ) ;
#75 = CARTESIAN_POINT ( 'NONE',  ( -1.614212418857619014, 6.123233995736767268E-16, -5.000000000000000888 ) ) ;
#76 = AXIS2_PLACEMENT_3D ( 'NONE', #159, #61, #215 ) ;
#77 =( NAMED_UNIT ( * ) SI_UNIT ( $, .STERADIAN. ) SOLID_ANGLE_UNIT ( ) );
#78 = DIRECTION ( 'NONE',  ( -1.000000000000000000, -0.000000000000000000, -0.000000000000000000 ) ) ;
#79 = FACE_BOUND ( 'NONE', #301, .T. ) ;
#80 = ADVANCED_FACE ( 'NONE', ( #229 ), #179, .F. ) ;
#81 = CARTESIAN_POINT ( 'NONE',  ( -3.000000000000000000, 0.000000000000000000, 0.000000000000000000 ) ) ;
#82 = CIRCLE ( 'NONE', #56, 5.000000000000000000 ) ;
#83 = DIRECTION ( 'NONE',  ( -1.000000000000000000, -0.000000000000000000, -0.000000000000000000 ) ) ;
#84 = DIRECTION ( 'NONE',  ( 0.000000000000000000, 0.000000000000000000, 1.000000000000000000 ) ) ;
#85 = CIRCLE ( 'NONE', #76, 12.69999999999999929 ) ;
#86 = AXIS2_PLACEMENT_3D ( 'NONE', #227, #333, #98 ) ;
#87 = ORIENTED_EDGE ( 'NONE', *, *, #128, .T. ) ;
#88 = ORIENTED_EDGE ( 'NONE', *, *, #5, .T. ) ;
#89 = COORDINATED_UNIVERSAL_TIME_OFFSET ( 8, 0, .AHEAD. ) ;
#90 = ADVANCED_BREP_SHAPE_REPRESENTATION ( 'QB-CTZHWP-10-1550-M', ( #38, #334 ), #140 ) ;
#91 = ORIENTED_EDGE ( 'NONE', *, *, #219, .F. ) ;
#92 = ORIENTED_EDGE ( 'NONE', *, *, #175, .F. ) ;
#93 = DATE_AND_TIME ( #226, #323 ) ;
#94 = EDGE_LOOP ( 'NONE', ( #20, #66 ) ) ;
#95 = CALENDAR_DATE ( 2020, 24, 12 ) ;
#96 = UNCERTAINTY_MEASURE_WITH_UNIT (LENGTH_MEASURE( 1.000000000000000082E-05 ), #131, 'distance_accuracy_value', 'NONE');
#97 = EDGE_CURVE ( 'NONE', #222, #149, #309, .T. ) ;
#98 = DIRECTION ( 'NONE',  ( 0.000000000000000000, 0.000000000000000000, 1.000000000000000000 ) ) ;
#99 = CC_DESIGN_SECURITY_CLASSIFICATION ( #277, ( #174 ) ) ;
#100 = DIRECTION ( 'NONE',  ( 0.000000000000000000, 0.000000000000000000, 1.000000000000000000 ) ) ;
#101 = EDGE_CURVE ( 'NONE', #269, #167, #52, .T. ) ;
#102 = DIRECTION ( 'NONE',  ( -1.000000000000000000, -0.000000000000000000, -0.000000000000000000 ) ) ;
#103 = CARTESIAN_POINT ( 'NONE',  ( -1.250000000000000222, 0.000000000000000000, 0.000000000000000000 ) ) ;
#104 = LINE ( 'NONE', #155, #160 ) ;
#105 = ORGANIZATION ( 'UNSPECIFIED', 'UNSPECIFIED', '' ) ;
#106 = VECTOR ( 'NONE', #280, 1000.000000000000000 ) ;
#107 = DIRECTION ( 'NONE',  ( 1.000000000000000000, 0.000000000000000000, 0.000000000000000000 ) ) ;
#108 = LOCAL_TIME ( 9, 33, 58.00000000000000000, #275 ) ;
#109 = CARTESIAN_POINT ( 'NONE',  ( -3.000000000000000000, 0.000000000000000000, 0.000000000000000000 ) ) ;
#110 = CARTESIAN_POINT ( 'NONE',  ( -1.250000000000000222, 0.000000000000000000, 0.000000000000000000 ) ) ;
#111 = EDGE_CURVE ( 'NONE', #195, #167, #197, .T. ) ;
#112 = FACE_OUTER_BOUND ( 'NONE', #65, .T. ) ;
#113 = AXIS2_PLACEMENT_3D ( 'NONE', #235, #313, #285 ) ;
#114 = VERTEX_POINT ( 'NONE', #240 ) ;
#115 = VERTEX_POINT ( 'NONE', #39 ) ;
#116 = PERSON_AND_ORGANIZATION_ROLE ( 'design_supplier' ) ;
#117 = ORIENTED_EDGE ( 'NONE', *, *, #317, .T. ) ;
#118 = ADVANCED_FACE ( 'NONE', ( #60 ), #322, .F. ) ;
#119 = SHAPE_DEFINITION_REPRESENTATION ( #303, #90 ) ;
#120 = ORIENTED_EDGE ( 'NONE', *, *, #5, .F. ) ;
#121 = ORIENTED_EDGE ( 'NONE', *, *, #188, .F. ) ;
#122 = DIRECTION ( 'NONE',  ( -1.000000000000000000, -0.000000000000000000, -0.000000000000000000 ) ) ;
#123 = ORIENTED_EDGE ( 'NONE', *, *, #40, .T. ) ;
#124 = FACE_OUTER_BOUND ( 'NONE', #94, .T. ) ;
#125 = CYLINDRICAL_SURFACE ( 'NONE', #330, 12.69999999999999929 ) ;
#126 = ADVANCED_FACE ( 'NONE', ( #64 ), #293, .F. ) ;
#127 = FACE_OUTER_BOUND ( 'NONE', #250, .T. ) ;
#128 = EDGE_CURVE ( 'NONE', #149, #42, #37, .T. ) ;
#129 = CYLINDRICAL_SURFACE ( 'NONE', #153, 5.000000000000000888 ) ;
#130 = CARTESIAN_POINT ( 'NONE',  ( 3.000000000000000000, 12.69999999999999929, 0.000000000000000000 ) ) ;
#131 =( LENGTH_UNIT ( ) NAMED_UNIT ( * ) SI_UNIT ( .MILLI., .METRE. ) );
#132 = DIRECTION ( 'NONE',  ( 0.000000000000000000, 0.000000000000000000, 1.000000000000000000 ) ) ;
#133 = EDGE_CURVE ( 'NONE', #115, #171, #163, .T. ) ;
#134 = AXIS2_PLACEMENT_3D ( 'NONE', #289, #182, #180 ) ;
#135 = LINE ( 'NONE', #266, #23 ) ;
#136 = CIRCLE ( 'NONE', #86, 5.000000000000001776 ) ;
#137 = DIRECTION ( 'NONE',  ( -1.000000000000000000, -0.000000000000000000, -0.000000000000000000 ) ) ;
#138 = DIRECTION ( 'NONE',  ( -1.000000000000000000, 0.000000000000000000, -0.000000000000000000 ) ) ;
#139 = EDGE_CURVE ( 'NONE', #114, #42, #135, .T. ) ;
#140 =( GEOMETRIC_REPRESENTATION_CONTEXT ( 3 ) GLOBAL_UNCERTAINTY_ASSIGNED_CONTEXT ( ( #96 ) ) GLOBAL_UNIT_ASSIGNED_CONTEXT ( ( #131, #288, #77 ) ) REPRESENTATION_CONTEXT ( 'NONE', 'WORKASPACE' ) );
#141 = ORIENTED_EDGE ( 'NONE', *, *, #219, .T. ) ;
#142 = APPROVAL_DATE_TIME ( #22, #244 ) ;
#143 = ORIENTED_EDGE ( 'NONE', *, *, #101, .F. ) ;
#144 = PERSON_AND_ORGANIZATION ( #230, #105 ) ;
#145 = EDGE_LOOP ( 'NONE', ( #220, #91 ) ) ;
#146 = DATE_AND_TIME ( #221, #108 ) ;
#147 = ORIENTED_EDGE ( 'NONE', *, *, #40, .F. ) ;
#148 = APPROVAL_PERSON_ORGANIZATION ( #67, #244, #165 ) ;
#149 = VERTEX_POINT ( 'NONE', #214 ) ;
#150 = FACE_OUTER_BOUND ( 'NONE', #71, .T. ) ;
#151 = PLANE ( 'NONE',  #59 ) ;
#152 = CARTESIAN_POINT ( 'NONE',  ( -3.000000000000000000, 0.000000000000000000, 0.000000000000000000 ) ) ;
#153 = AXIS2_PLACEMENT_3D ( 'NONE', #29, #78, #30 ) ;
#154 = CYLINDRICAL_SURFACE ( 'NONE', #13, 5.000000000000000888 ) ;
#155 = CARTESIAN_POINT ( 'NONE',  ( -1.614212418857619014, 0.000000000000000000, 5.000000000000000888 ) ) ;
#156 = CC_DESIGN_DATE_AND_TIME_ASSIGNMENT ( #93, #194, ( #69 ) ) ;
#157 = CIRCLE ( 'NONE', #16, 5.000000000000001776 ) ;
#158 = DIRECTION ( 'NONE',  ( 0.000000000000000000, 0.000000000000000000, 1.000000000000000000 ) ) ;
#159 = CARTESIAN_POINT ( 'NONE',  ( 3.000000000000000000, 0.000000000000000000, 0.000000000000000000 ) ) ;
#160 = VECTOR ( 'NONE', #237, 1000.000000000000000 ) ;
#161 = CARTESIAN_POINT ( 'NONE',  ( 3.000000000000000000, 0.000000000000000000, 5.000000000000001776 ) ) ;
#162 = EDGE_CURVE ( 'NONE', #114, #222, #325, .T. ) ;
#163 = CIRCLE ( 'NONE', #233, 5.000000000000000000 ) ;
#164 = CARTESIAN_POINT ( 'NONE',  ( -3.000000000000000000, 0.000000000000000000, 0.000000000000000000 ) ) ;
#165 = APPROVAL_ROLE ( '' ) ;
#166 = AXIS2_PLACEMENT_3D ( 'NONE', #81, #187, #191 ) ;
#167 = VERTEX_POINT ( 'NONE', #11 ) ;
#168 = DATE_AND_TIME ( #95, #295 ) ;
#169 = EDGE_LOOP ( 'NONE', ( #327, #173, #121, #200 ) ) ;
#170 = PERSON_AND_ORGANIZATION ( #230, #105 ) ;
#171 = VERTEX_POINT ( 'NONE', #319 ) ;
#172 = CALENDAR_DATE ( 2020, 24, 12 ) ;
#173 = ORIENTED_EDGE ( 'NONE', *, *, #97, .T. ) ;
#174 = PRODUCT_DEFINITION_FORMATION_WITH_SPECIFIED_SOURCE ( 'ANY', '', #271, .NOT_KNOWN. ) ;
#175 = EDGE_CURVE ( 'NONE', #269, #193, #157, .T. ) ;
#176 = DESIGN_CONTEXT ( 'detailed design', #33, 'design' ) ;
#177 = CARTESIAN_POINT ( 'NONE',  ( -1.614212418857619014, 0.000000000000000000, 0.000000000000000000 ) ) ;
#178 = AXIS2_PLACEMENT_3D ( 'NONE', #243, #62, #84 ) ;
#179 = CYLINDRICAL_SURFACE ( 'NONE', #297, 5.000000000000000888 ) ;
#180 = DIRECTION ( 'NONE',  ( 0.000000000000000000, 0.000000000000000000, -1.000000000000000000 ) ) ;
#181 = VECTOR ( 'NONE', #4, 1000.000000000000000 ) ;
#182 = DIRECTION ( 'NONE',  ( 1.000000000000000000, 0.000000000000000000, 0.000000000000000000 ) ) ;
#183 = DIRECTION ( 'NONE',  ( -1.000000000000000000, -0.000000000000000000, -0.000000000000000000 ) ) ;
#184 = CC_DESIGN_PERSON_AND_ORGANIZATION_ASSIGNMENT ( #196, #267, ( #174 ) ) ;
#185 = AXIS2_PLACEMENT_3D ( 'NONE', #260, #102, #231 ) ;
#186 = CARTESIAN_POINT ( 'NONE',  ( -1.250000000000000222, 0.000000000000000000, 5.000000000000000888 ) ) ;
#187 = DIRECTION ( 'NONE',  ( -1.000000000000000000, -0.000000000000000000, -0.000000000000000000 ) ) ;
#188 = EDGE_CURVE ( 'NONE', #42, #149, #264, .T. ) ;
#189 = CYLINDRICAL_SURFACE ( 'NONE', #294, 5.000000000000000888 ) ;
#190 = LOCAL_TIME ( 9, 33, 58.00000000000000000, #273 ) ;
#191 = DIRECTION ( 'NONE',  ( 0.000000000000000000, 0.000000000000000000, 1.000000000000000000 ) ) ;
#192 = EDGE_LOOP ( 'NONE', ( #92, #248, #21, #282 ) ) ;
#193 = VERTEX_POINT ( 'NONE', #161 ) ;
#194 = DATE_TIME_ROLE ( 'creation_date' ) ;
#195 = VERTEX_POINT ( 'NONE', #292 ) ;
#196 = PERSON_AND_ORGANIZATION ( #230, #105 ) ;
#197 = CIRCLE ( 'NONE', #51, 5.000000000000000000 ) ;
#198 = ORIENTED_EDGE ( 'NONE', *, *, #74, .T. ) ;
#199 = DATE_AND_TIME ( #172, #63 ) ;
#200 = ORIENTED_EDGE ( 'NONE', *, *, #139, .F. ) ;
#201 = DIRECTION ( 'NONE',  ( -1.000000000000000000, -0.000000000000000000, -0.000000000000000000 ) ) ;
#202 = LINE ( 'NONE', #256, #241 ) ;
#203 = CC_DESIGN_PERSON_AND_ORGANIZATION_ASSIGNMENT ( #144, #116, ( #174 ) ) ;
#204 = DIRECTION ( 'NONE',  ( 0.000000000000000000, 0.000000000000000000, -1.000000000000000000 ) ) ;
#205 = ADVANCED_FACE ( 'NONE', ( #112 ), #189, .F. ) ;
#206 = CARTESIAN_POINT ( 'NONE',  ( 0.000000000000000000, 0.000000000000000000, 0.000000000000000000 ) ) ;
#207 = AXIS2_PLACEMENT_3D ( 'NONE', #103, #73, #204 ) ;
#208 = DIRECTION ( 'NONE',  ( 0.000000000000000000, 0.000000000000000000, 1.000000000000000000 ) ) ;
#209 = EDGE_CURVE ( 'NONE', #222, #114, #85, .T. ) ;
#210 = PERSON_AND_ORGANIZATION ( #230, #105 ) ;
#211 = DIRECTION ( 'NONE',  ( -1.000000000000000000, -0.000000000000000000, -0.000000000000000000 ) ) ;
#212 = APPROVAL ( #326, 'UNSPECIFIED' ) ;
#213 = DIRECTION ( 'NONE',  ( 0.000000000000000000, 0.000000000000000000, 1.000000000000000000 ) ) ;
#214 = CARTESIAN_POINT ( 'NONE',  ( -3.000000000000000000, 1.555301434917138433E-15, -12.69999999999999929 ) ) ;
#215 = DIRECTION ( 'NONE',  ( 0.000000000000000000, 0.000000000000000000, 1.000000000000000000 ) ) ;
#216 = APPROVAL_PERSON_ORGANIZATION ( #329, #212, #249 ) ;
#217 = VERTEX_POINT ( 'NONE', #34 ) ;
#218 = CLOSED_SHELL ( 'NONE', ( #268, #228, #80, #118, #236, #205, #306, #17, #286, #126 ) ) ;
#219 = EDGE_CURVE ( 'NONE', #217, #274, #290, .T. ) ;
#220 = ORIENTED_EDGE ( 'NONE', *, *, #45, .F. ) ;
#221 = CALENDAR_DATE ( 2020, 24, 12 ) ;
#222 = VERTEX_POINT ( 'NONE', #55 ) ;
#223 = APPROVAL_STATUS ( 'not_yet_approved' ) ;
#224 = CC_DESIGN_PERSON_AND_ORGANIZATION_ASSIGNMENT ( #170, #68, ( #277 ) ) ;
#225 = ORIENTED_EDGE ( 'NONE', *, *, #111, .T. ) ;
#226 = CALENDAR_DATE ( 2020, 24, 12 ) ;
#227 = CARTESIAN_POINT ( 'NONE',  ( 3.000000000000000000, 0.000000000000000000, 0.000000000000000000 ) ) ;
#228 = ADVANCED_FACE ( 'NONE', ( #315 ), #129, .F. ) ;
#229 = FACE_OUTER_BOUND ( 'NONE', #192, .T. ) ;
#230 = PERSON ( 'UNSPECIFIED', 'UNSPECIFIED', 'UNSPECIFIED', ('UNSPECIFIED'), ('UNSPECIFIED'), ('UNSPECIFIED') ) ;
#231 = DIRECTION ( 'NONE',  ( 0.000000000000000000, 0.000000000000000000, 1.000000000000000000 ) ) ;
#232 = CARTESIAN_POINT ( 'NONE',  ( -1.614212418857619014, 0.000000000000000000, 0.000000000000000000 ) ) ;
#233 = AXIS2_PLACEMENT_3D ( 'NONE', #164, #211, #213 ) ;
#234 = FACE_OUTER_BOUND ( 'NONE', #46, .T. ) ;
#235 = CARTESIAN_POINT ( 'NONE',  ( 1.250000000000000444, 0.000000000000000000, 0.000000000000000000 ) ) ;
#236 = ADVANCED_FACE ( 'NONE', ( #127 ), #154, .F. ) ;
#237 = DIRECTION ( 'NONE',  ( -1.000000000000000000, -0.000000000000000000, -0.000000000000000000 ) ) ;
#238 = APPLICATION_CONTEXT ( 'configuration controlled 3d designs of mechanical parts and assemblies' ) ;
#239 = DIRECTION ( 'NONE',  ( -1.000000000000000000, -0.000000000000000000, -0.000000000000000000 ) ) ;
#240 = CARTESIAN_POINT ( 'NONE',  ( 3.000000000000000000, 0.000000000000000000, 12.69999999999999929 ) ) ;
#241 = VECTOR ( 'NONE', #310, 1000.000000000000000 ) ;
#242 = CARTESIAN_POINT ( 'NONE',  ( -1.250000000000000222, 5.000000000000000000, 0.000000000000000000 ) ) ;
#243 = CARTESIAN_POINT ( 'NONE',  ( 3.000000000000000000, 0.000000000000000000, 0.000000000000000000 ) ) ;
#244 = APPROVAL ( #47, 'UNSPECIFIED' ) ;
#245 = ORIENTED_EDGE ( 'NONE', *, *, #175, .T. ) ;
#246 = PERSON_AND_ORGANIZATION_ROLE ( 'creator' ) ;
#247 = DATE_TIME_ROLE ( 'classification_date' ) ;
#248 = ORIENTED_EDGE ( 'NONE', *, *, #101, .T. ) ;
#249 = APPROVAL_ROLE ( '' ) ;
#250 = EDGE_LOOP ( 'NONE', ( #143, #307, #117, #225 ) ) ;
#251 = APPLICATION_PROTOCOL_DEFINITION ( 'international standard', 'config_control_design', 1994, #33 ) ;
#252 = CIRCLE ( 'NONE', #207, 5.000000000000000888 ) ;
#253 = ORIENTED_EDGE ( 'NONE', *, *, #209, .T. ) ;
#254 = DIRECTION ( 'NONE',  ( 0.000000000000000000, 0.000000000000000000, 1.000000000000000000 ) ) ;
#255 = DIRECTION ( 'NONE',  ( 0.000000000000000000, 0.000000000000000000, -1.000000000000000000 ) ) ;
#256 = CARTESIAN_POINT ( 'NONE',  ( -1.614212418857619014, 0.000000000000000000, 5.000000000000000888 ) ) ;
#257 = DIRECTION ( 'NONE',  ( 1.000000000000000000, 0.000000000000000000, 0.000000000000000000 ) ) ;
#258 = MECHANICAL_CONTEXT ( 'NONE', #238, 'mechanical' ) ;
#259 = CARTESIAN_POINT ( 'NONE',  ( -1.614212418857619014, 0.000000000000000000, 0.000000000000000000 ) ) ;
#260 = CARTESIAN_POINT ( 'NONE',  ( -1.614212418857619014, 0.000000000000000000, 0.000000000000000000 ) ) ;
#261 = CC_DESIGN_PERSON_AND_ORGANIZATION_ASSIGNMENT ( #210, #302, ( #271 ) ) ;
#262 = CARTESIAN_POINT ( 'NONE',  ( 1.250000000000000444, 0.000000000000000000, 0.000000000000000000 ) ) ;
#263 = DIRECTION ( 'NONE',  ( 0.000000000000000000, 0.000000000000000000, -1.000000000000000000 ) ) ;
#264 = CIRCLE ( 'NONE', #166, 12.69999999999999929 ) ;
#265 = DIRECTION ( 'NONE',  ( -1.000000000000000000, -0.000000000000000000, -0.000000000000000000 ) ) ;
#266 = CARTESIAN_POINT ( 'NONE',  ( -1.614212418857619014, 0.000000000000000000, 12.69999999999999929 ) ) ;
#267 = PERSON_AND_ORGANIZATION_ROLE ( 'creator' ) ;
#268 = ADVANCED_FACE ( 'NONE', ( #316 ), #318, .T. ) ;
#269 = VERTEX_POINT ( 'NONE', #311 ) ;
#270 = COORDINATED_UNIVERSAL_TIME_OFFSET ( 8, 0, .AHEAD. ) ;
#271 = PRODUCT ( 'QB-CTZHWP-10-1550-M', 'QB-CTZHWP-10-1550-M', '', ( #258 ) ) ;
#272 = ORIENTED_EDGE ( 'NONE', *, *, #133, .F. ) ;
#273 = COORDINATED_UNIVERSAL_TIME_OFFSET ( 8, 0, .AHEAD. ) ;
#274 = VERTEX_POINT ( 'NONE', #186 ) ;
#275 = COORDINATED_UNIVERSAL_TIME_OFFSET ( 8, 0, .AHEAD. ) ;
#276 = CC_DESIGN_APPROVAL ( #244, ( #69 ) ) ;
#277 = SECURITY_CLASSIFICATION ( '', '', #305 ) ;
#278 = EDGE_CURVE ( 'NONE', #167, #195, #7, .T. ) ;
#279 = AXIS2_PLACEMENT_3D ( 'NONE', #242, #107, #263 ) ;
#280 = DIRECTION ( 'NONE',  ( -1.000000000000000000, -0.000000000000000000, -0.000000000000000000 ) ) ;
#281 = PRODUCT_RELATED_PRODUCT_CATEGORY ( 'detail', '', ( #271 ) ) ;
#282 = ORIENTED_EDGE ( 'NONE', *, *, #317, .F. ) ;
#283 = DIRECTION ( 'NONE',  ( -1.000000000000000000, 0.000000000000000000, -0.000000000000000000 ) ) ;
#284 = CC_DESIGN_APPROVAL ( #9, ( #174 ) ) ;
#285 = DIRECTION ( 'NONE',  ( 0.000000000000000000, 0.000000000000000000, 1.000000000000000000 ) ) ;
#286 = ADVANCED_FACE ( 'NONE', ( #124, #26 ), #151, .F. ) ;
#287 = VECTOR ( 'NONE', #122, 1000.000000000000000 ) ;
#288 =( NAMED_UNIT ( * ) PLANE_ANGLE_UNIT ( ) SI_UNIT ( $, .RADIAN. ) );
#289 = CARTESIAN_POINT ( 'NONE',  ( -3.000000000000000000, 5.000000000000000000, 0.000000000000000000 ) ) ;
#290 = CIRCLE ( 'NONE', #314, 5.000000000000000888 ) ;
#291 = CARTESIAN_POINT ( 'NONE',  ( 1.250000000000000222, 5.000000000000000000, 0.000000000000000000 ) ) ;
#292 = CARTESIAN_POINT ( 'NONE',  ( 1.250000000000000444, 0.000000000000000000, 5.000000000000000000 ) ) ;
#293 = PLANE ( 'NONE',  #279 ) ;
#294 = AXIS2_PLACEMENT_3D ( 'NONE', #36, #137, #10 ) ;
#295 = LOCAL_TIME ( 9, 33, 58.00000000000000000, #15 ) ;
#296 = DIRECTION ( 'NONE',  ( -1.000000000000000000, -0.000000000000000000, -0.000000000000000000 ) ) ;
#297 = AXIS2_PLACEMENT_3D ( 'NONE', #177, #201, #100 ) ;
#298 = EDGE_LOOP ( 'NONE', ( #335, #14 ) ) ;
#299 = ORIENTED_EDGE ( 'NONE', *, *, #53, .F. ) ;
#300 = APPROVAL_ROLE ( '' ) ;
#301 = EDGE_LOOP ( 'NONE', ( #120, #272 ) ) ;
#302 = PERSON_AND_ORGANIZATION_ROLE ( 'design_owner' ) ;
#303 = PRODUCT_DEFINITION_SHAPE ( 'NONE', 'NONE',  #69 ) ;
#304 = ORIENTED_EDGE ( 'NONE', *, *, #188, .T. ) ;
#305 = SECURITY_CLASSIFICATION_LEVEL ( 'unclassified' ) ;
#306 = ADVANCED_FACE ( 'NONE', ( #79, #234 ), #3, .F. ) ;
#307 = ORIENTED_EDGE ( 'NONE', *, *, #74, .F. ) ;
#308 = CC_DESIGN_APPROVAL ( #212, ( #277 ) ) ;
#309 = LINE ( 'NONE', #72, #106 ) ;
#310 = DIRECTION ( 'NONE',  ( -1.000000000000000000, -0.000000000000000000, -0.000000000000000000 ) ) ;
#311 = CARTESIAN_POINT ( 'NONE',  ( 3.000000000000000000, 6.123233995736768255E-16, -5.000000000000001776 ) ) ;
#312 = LINE ( 'NONE', #25, #287 ) ;
#313 = DIRECTION ( 'NONE',  ( -1.000000000000000000, -0.000000000000000000, -0.000000000000000000 ) ) ;
#314 = AXIS2_PLACEMENT_3D ( 'NONE', #110, #257, #255 ) ;
#315 = FACE_OUTER_BOUND ( 'NONE', #48, .T. ) ;
#316 = FACE_OUTER_BOUND ( 'NONE', #169, .T. ) ;
#317 = EDGE_CURVE ( 'NONE', #193, #195, #104, .T. ) ;
#318 = CYLINDRICAL_SURFACE ( 'NONE', #185, 12.69999999999999929 ) ;
#319 = CARTESIAN_POINT ( 'NONE',  ( -3.000000000000000000, 0.000000000000000000, 5.000000000000000000 ) ) ;
#320 = CARTESIAN_POINT ( 'NONE',  ( 3.000000000000000000, 0.000000000000000000, 0.000000000000000000 ) ) ;
#321 = CC_DESIGN_DATE_AND_TIME_ASSIGNMENT ( #146, #247, ( #277 ) ) ;
#322 = PLANE ( 'NONE',  #57 ) ;
#323 = LOCAL_TIME ( 9, 33, 58.00000000000000000, #270 ) ;
#324 = ORIENTED_EDGE ( 'NONE', *, *, #128, .F. ) ;
#325 = CIRCLE ( 'NONE', #178, 12.69999999999999929 ) ;
#326 = APPROVAL_STATUS ( 'not_yet_approved' ) ;
#327 = ORIENTED_EDGE ( 'NONE', *, *, #162, .T. ) ;
#328 = ORIENTED_EDGE ( 'NONE', *, *, #133, .T. ) ;
#329 = PERSON_AND_ORGANIZATION ( #230, #105 ) ;
#330 = AXIS2_PLACEMENT_3D ( 'NONE', #232, #54, #254 ) ;
#331 = ORIENTED_EDGE ( 'NONE', *, *, #97, .F. ) ;
#332 = PERSON_AND_ORGANIZATION ( #230, #105 ) ;
#333 = DIRECTION ( 'NONE',  ( -1.000000000000000000, -0.000000000000000000, -0.000000000000000000 ) ) ;
#334 = AXIS2_PLACEMENT_3D ( 'NONE', #206, #208, #58 ) ;
#335 = ORIENTED_EDGE ( 'NONE', *, *, #111, .F. ) ;
ENDSEC;
END-ISO-10303-21;
